试听
gtp5GTP格式吉他谱下载: music-notation01图片(IMG)格式吉他谱:
  
歌曲信息
-------------------------------------------------------------------------------
歌曲名:择偶条件
歌手/乐队:戴佩妮			
编配者(转载来源):网络
-------------------------------------------------------------------------------
E||-------|--3----|--2----|--3----|--3----|--3----|------||
B||--3----|--3----|--3----|--3----|--3----|--3----|------||
G||-------|-------|--2----|--2----|--2----|-------|------||
D||--2----|--2----|-------|-------|--2----|-------|------||
A||--3----|--3----|-------|-------|-------|--2----|------||
E||-------|-------|-------|-------|-------|--3----|------||

  Cadd9(no5) Cadd9  D      Dsus4    Dsus4/E  G

前奏:D   Cadd9(no5)  G

D
开着借来的车就这样绕了几个town
Cadd9(no5)
what’s up dude everywhere
       G    
他们都习惯这样问好
D                Dsus4
经过间jumbo juice买了柳橙的味道
Cadd9
我说如果两个人喝刚刚好
G
营养不多也不少
Dsus4
奶油的香收买我不了
Dsus4/E         Cadd9
latte的浓吸引我不了
G
我只好奇l.a.的树有多高
Dsus4
这里的girl爱穿得少少
Dsus4/E         Cadd9
有双蓝眼睛一直对我笑
G
by the way 我要先思考

Dsus4             Dsus4/E
条件一要懂得会逗我笑(条件二)
           Cadd9   
要懂得珍惜我的好(条件三)
        G
要偶尔像小孩撒娇

Dsus4             Dsus4/E
条件四没有接受不了的嗜好(条件五)
          Cadd9 
个性不能够太胆小(条件六)
        G        Dsus4 
要记得准时把我喂饱
Dsus4/E   Cadd9 
na……

G一小节  后接
Dsus4 
松开了安全带望后镜里瞧一瞧
Cadd9
how’s ur date i don’t know
G
mr.right真难找
D
街上的人都很妙
Dsus4/E
脖子不停前后摇
 Cadd9
裤子老穿得吊吊
  G
走路样子很炫耀

Dsus4
奶油的香收买我不了
Dsus4/E         Cadd9
latte的浓吸引我不了
G
我只好奇l.a.的树有多高
Dsus4
这里的girl爱穿得少少
Dsus4/E         Cadd9
有双蓝眼睛一直对我笑
G
by the way 我要先思考

Dsus4             Dsus4/E
条件一要懂得尊师重道(条件二)
            Cadd9 
要懂得适度的讨好(条件三)
             G
偶尔浪漫会增加情调
Dsus4             Dsus4/E
条件四不能长的太高(条件五)
         Cadd9
脾气不能太暴躁(条件六)
       G     Dsus4
血型星座要当做参考

      Dsus4/E      Cadd9  
oh my love oh my soul
G
射手座的要先out
      Dsus4/E      Cadd9  
oh my love oh my soul
G
ab血型最难搞

Dsus4             Dsus4/E
条件一要懂得会逗我笑(条件二)
           Cadd9   
要懂得珍惜我的好(条件三)
        G
要偶尔像小孩撒娇

Dsus4             Dsus4/E
条件四没有接受不了的嗜好(条件五)
          Cadd9 
个性不能够太胆小(条件六)
        G        Dsus4 
要记得准时把我   条件一
Dsus4/E   Cadd9   G  Dsus4 Dsus4/E   Cadd9    G             D
na……                                     血型星座要当做参考