试听
gtp5GTP格式吉他谱下载: music-notation01图片(IMG)格式吉他谱:
  
歌曲信息
-------------------------------------------------------------------------------
歌曲名:我们不是朋友 
歌手/乐队:方力申
编配者(转载来源):网络
-------------------------------------------------------------------------------

1|------|----|------|----|
2|------|----|------|----|
3|------|----|------|----|
4|1-----|---4|1-----|---4|
5|-42444|444-|-42444|444-|
6|------|----|------|----|
  请不要再叫我 当对我好 不需要再见我 对你也好

1|------|------|--|--|--|
2|------|------|--|--|--|
3|------|------|--|--|--|
4|444212|444212|--|--|1-|
5|------|------|22|24|-4|
6|------|------|--|--|--|
  即使需要遇到 不等於要望到 对你 对我 都好

1|---|---|-----|-------|-------|
2|---|---|-----|-420-04|444----|
3|-13|343|34343|----3--|---4411|
4|4--|---|-----|4------|-------|
5|---|---|-----|-------|-------|
6|---|---|-----|-------|-------|
  还情愿 令脚步 右转十五度 鞋带装作未结好 不必装作有量度

1|-------|------|
2|444----|----42|
3|---44--|------|
4|-----44|1212--|
5|-------|------|
6|-------|------|
  招呼打了也徒劳 让我成為孤岛

1|----|---0|---|----|-0-|
2|0-04|0-0-|0-0|----|2-4|
3|-3--|-3--|-3-|31--|---|
4|----|----|---|--44|---|
5|----|----|---|----|---|
6|----|----|---|----|---|
 *要是碰到 惹人烦燥 太乐意 往事重提 没态度

1|-------|---|-----|-----|--022|
2|242-0--|-0-|-----|---04|24---|
3|---3-11|3--|-----|111--|-----|
4|-------|--4|44212|-----|-----|
5|-------|---|-----|-----|-----|
6|-------|---|-----|-----|-----|
  我只希望变陌路 遇见时 不必礼貌到 扮问候对方 还自觉清高

1|----22|40|--0|----00|2--|----0|
2|0000--|--|24-|------|-42|124--|
3|------|--|---|1111--|---|---1-|
4|------|--|---|------|---|-----|
5|------|--|---|------|---|-----|
6|------|--|---|------|---|-----|
  从前谁和我说 天老 情未老 原来从来当我 只不过 是你的浮泡

1|-----|------|
2|-----|------|
3|13434|443134|
4|-----|------|
5|-----|------|
6|-----|------|
  其实再遇见 我也没仇~报*

1|------|-----|-------|-------|
2|----0-|-0-0-|-420-04|44400--|
3|-133-3|3-3-3|----3--|-----11|
4|4-----|-----|4------|-------|
5|------|-----|-------|-------|
6|------|-----|-------|-------|
  长情实在美丽 但我没造诣 能攻心计扮到底 假使小器更受惠

1|-------|------|
2|44400--|----42|
3|-------|------|
4|-----44|1212--|
5|-------|------|
6|-------|------|
  假装洒脱太难為 问我如何得体

Repeat *

1|----|-----|------|0---|
2|0000|24202|------|-424|
3|----|-----|33333-|----|
4|----|-----|-----4|----|
5|----|-----|------|----|
6|----|-----|------|----|
  听说过你 过得比我好 现在就在面前 亲身看到

1|-220-0|-00---|---0--|
2|----4-|---424|-24-42|
3|------|------|------|
4|4-----|4-----|4-----|
5|------|------|------|
6|------|------|------|
  如果可以避免 情愿不讲你好 為何让你自豪

1|----|---0|---|----|-0-|
2|0-04|0-0-|0-0|----|2-4|
3|-3--|-3--|-3-|31--|---|
4|----|----|---|--44|---|
5|----|----|---|----|---|
6|----|----|---|----|---|
  再待你好 也无回报 要是说 变做仇人 是退步

1|-------|---|-----|-------022|
2|242-0--|-0-|-----|---0424---|
3|---3-11|3--|-----|111-------|
4|-------|--4|44212|----------|
5|-------|---|-----|----------|
6|-------|---|-----|----------|
  也不希望继续做 做友人 彷彿伟大到 受害后我都怀念你的好

1|----22|40|--0|----00|2--|----0|
2|0000--|--|24-|------|-42|124--|
3|------|--|---|1111--|---|---1-|
4|------|--|---|------|---|-----|
5|------|--|---|------|---|-----|
6|------|--|---|------|---|-----|
  从前谁和我说 天老 情未老 為何回头怨我 都不配 做你的浮泡

1|-----|------|
2|-----|------|
3|13434|443134|
4|-----|------|
5|-----|------|
6|-----|------|
  其实你负我 你却像原~告

1|------|----|------|----|
2|------|----|------|----|
3|------|----|------|----|
4|1-----|---4|1-----|---4|
5|-42444|444-|-42444|444-|
6|------|----|------|----|
  请不要再叫我 当对我好 不需要再见我 对你也好

1|------|------|--|----|
2|------|------|--|----|
3|------|------|--|----|
4|444212|444212|--|--1-|
5|------|------|22|24-4|
6|------|------|--|----|
  真的想锻鍊到 不必因你暴躁 但是 晚节不保