GTP格式吉他谱下载: 图片(IMG)格式吉他谱:
  牵挂.gif
-------------------------------------------------------------------------------
歌曲名:牵挂
歌手/乐队:伍佰
编配者(转载来源):网络
-------------------------------------------------------------------------------

   ---------------]
    如何转去G#
    A 大调 G# 大调
    --- ----
      A   = G#
      Bm  = A#m
      C#m = Cm
      D   = C#m
      E   = D#
      F#m = Fm
      G#m = Gm

   Solo 全部退一格 !
   ---------------]

   A       E     F#m    A        E      F#m
   牵掛著你是那颗我的心 飘呀飘地在你面前捉模不定
   A       E     F#m    A        E      F#m
   牵掛著你是那份我的情 吹呀吹到你的眼前我的心
     A       E       F#m C#m    F#m   Bm      D   E
   我不愿看到你那湿润的眼睛 怕我会忍不住疼你怕你伤心
     A       E       F#m C#m    F#m   Bm      D   E    A
   我不愿听见你说寂寞的声音 怕我会忍不住对你说我的真 感情
   A       E     F#m    A        E      F#m
   牵掛著你是那双我的手 越过你的长髮越过你心窝
   A       E     F#m      A        E      F#m
   牵掛著你是那份我的温柔 飞过你的肩膀飞过你的手
     A       E       F#m C#m    F#m   Bm      D   E
   我不愿看见你独自离去的身影 怕我会忍不住牵你手将你带走
     A       E       F#m C#m    F#m   Bm      D   E
   我不愿看到你依依不捨的表情 怕我会忍不住再停留怕妳难过

F#m            C#m          D            E
   你像盛开花朵绽放整个天空  温暖著我将我拥抱在你的怀中
F#m            C#m          D            E
   不愿承认是我最深情的脆弱  能否与你一生守候

   *SOLO*
   |--------------------------------9-9~--|
   |-10~-10~-10~-10~-10/12--12-10-12------|
   |--------------------------------------|
   |--------------------------------------|
   |--------------------------------------|
   |--------------------------------------|

   |------------------------------------------9----|
   |- 10---10-10-10/12-12-12-10-10/12-10-10-12-10~-|
   |-9----------------------------------9----------|
   |-----------------------------------------------|
   |-----------------------------------------------|
   |-----------------------------------------------|

   |--------------------------------------9-9~--|
   |-10-10-10~-10~-10~-10~-10/12--12-10-12------|
   |--------------------------------------------|
   |--------------------------------------------|
   |--------------------------------------------|
   |--------------------------------------------|

   |------------------------------------------9----|
   |- 10---10-10-10/12-12-12-10-10/12-10-10-12-10~-|
   |-9----------------------------------9----------|
   |-----------------------------------------------|
   |-----------------------------------------------|
   |-----------------------------------------------|

   "repeat"
   |-12-12-12/9--9-9-9/7--7-7-7/5-5-5-7-5---5-7-5---5-----------------|
   |---------------------------------------------7-7-7-5-7-5~--5-7-5~-|
   |------------------------------------------------------------------|
   |------------------------------------------------------------------|
   |------------------------------------------------------------------|
   |------------------------------------------------------------------|

   |-------------------------------------------------------|
   |-------------------------------------------------------|
   |-----------------------------9--------6----------------|
   |-7-9-7-9-9/11--7---7-7-9-9/11-11-9-7-9-9-7-9-7---7-----|
   |----------------7-9-9-------------------------7-9-7-9~-|
   |-------------------------------------------------------|[REPEAT FROM "repeat"]

F#m            C#m          D            E
   你像盛开花朵绽放整个天空  温暖著我将我拥抱在你的怀中
F#m            C#m          D            E
   不愿承认是我最深情的脆弱  悲伤的我从此漂流
   A       E     F#m    A        E      F#m
   牵掛著你是那颗我的心 飘呀飘地在你面前捉模不定
   A       E     F#m    A        E      F#m
   捨不得你是那份我的情 而徘徊在你面前属於你的我
    A
  爱你