试听
[audio:]
gtp5GTP格式吉他谱下载: music-notation01图片(IMG)格式吉他谱:
  她在睡梦中
歌曲信息
-------------------------------------------------------------------------------
歌曲名:她在睡梦中
歌手/乐队:朴树
编配者(转载来源):网络
-------------------------------------------------------------------------------

1 = D  3/4

-------------------|-------------------|-------------------|
--------------0----|-------------------|--------------0----|
--------0----------|--------0-----2----|--------0----------|
--0--2-----2-------|--0--2-----2-------|--0--2-----2-------|
-------------------|-------------------|-------------------|
-------------------|-------------------|-------------------|

-------------------|-------------------|-------------------|-------------------|
--------3----------|--------------0----|-------------------|--------------3----|
--------------2----|--------0----------|--------0-----2----|--------0----------|
--0--2-----2-------|--0--2-----2-------|--0--2-----2-------|--0--2-----2-------|
-------------------|-------------------|-------------------|-------------------|
-------------------|-------------------|-------------------|-------------------|

-------------------||
--0--3-----3-------||
--------2-----0----||
-------------------||
-------------------||
-------------------||

这首歌高潮中大概是    D Bm A D     D Bm A G 这样的反复!