试听
gtp5GTP格式吉他谱下载: music-notation01图片(IMG)格式吉他谱:
  
歌曲信息
-------------------------------------------------------------------------------
歌曲名:风花雪 
歌手/乐队:陈慧琳
编配者(转载来源):网络
-------------------------------------------------------------------------------

   风花雪 ( solo part) - 陈慧琳

   Intro

   e|-------------------------------------------------------------------|
   B|----/12-10-9------------9-10-9--------------9----------------------|
   G|--------------11--9-11----------11--9-9-11-------------------------|
   D|-9--------------------------------------------9--11-11-11^v11-9----|
   A|-------------------------------------------------------------------|
   E|-------------------------------------------------------------------|

   e|-------------------------------------------------------------------|
   B|----/12-10-9------------9^~--------------9-------------------------|
   G|--------------11--9-11-------11--9-9-11----9-11-11--11^v11-9h11-9~-|
   D|-9-----------------------------------------------------------------|
   A|-------------------------------------------------------------------|
   E|-------------------------------------------------------------------|

   Mid-solo

   e|-------------------------------------------------------------------|
   B|----/12--12-13-13^-12--10---9-13-12-9------------------------------|
   G|--------------------------------------9---------------9^9-xx-9^~---|
   D|-9--------------------------------------9--9-7-6-7-9---------------|
   A|-------------------------------------------------------------------|
   E|-------------------------------------------------------------------|

   e|-------------------------------------------------------------------|
   B|-12~--12-13-13^-12--10---13--12-17-17-12-17-17-17^17-17^~17~-------|
   G|-------------------------------------------------------------------|
   D|-------------------------------------------------------------------|
   A|-------------------------------------------------------------------|
   E|-------------------------------------------------------------------|

   ENDING

   e|-------12-11-9--------------------------------12-12----9h10p9~-----|
   B|---9-12--------10--10-9-10-11^-10-----------9-------11-------------|
   G|--9---------------------------------11-9-11------------------------|
   D|-9-----------------------------------------------------------------|
   A|-------------------------------------------------------------------|
   E|-------------------------------------------------------------------|

   e|-------------------------------------------------------------------|
   B|----/12-10-9----------9^~-------------9----------9-----------------|
   G|--------------11--9-11-----11--9-9-11---9-11-11-----11--9~~--------|
   D|-9-----------------------------------------------------------------|
   A|-------------------------------------------------------------------|
   E|-------------------------------------------------------------------|

   Key:

   / = Sliding
   ^v= Bend & Release
   ~ = Vibrate & Hold the note
   x = Muted note
   h = Hammering On
   p = Pulling Off