试听
gtp5GTP格式吉他谱下载: music-notation01图片(IMG)格式吉他谱:
  
歌曲信息
-------------------------------------------------------------------------------
歌曲名:关于我们之间的事
歌手/乐队:张震岳
编配者(转载来源):网络
-------------------------------------------------------------------------------

F#m7     C#   F#m7       C#
 会微笑的秀髮   在我手中睡著
F#m7     C#          Cm7      F
 这瞬间像永恆   在梦幻的边缘
F#m7      C#    F#m7      C#
 oh~也许\\\有一天   我们不再相恋
F#m7     C#        Cm7   F
 但希望这感觉 停留在心裡面
       A#m         D#m7
 关於爱你 我现在爱你
       G#          Fm
 关於爱情 我用心很多
       A#m         D#m7        G#    F7
 关於未来 结果会如何 我无法承诺
      A#m          D#m7
 关於自己 我已经足够
       G#          Fm
 关於彼此 我还在学习
       A#m        D#m7        G#
 关於未来 我没有答案 我无法承诺

ENDING

  F#m7                C#      F#m7              C#
E|--------------------------------------------------------
B|--------------------------------------------------------
G|--------------------------------------------------------
D|----------------------------------------3/4--3----------
A|------------4--6/8--------------------------------6--4--
E|---4-4-4-4---------------------4-4-4-4------------------

F#m7           C#      Cm7       F
----------------------------------------------|
----------------------------------------------|
----------------------------------------------|
----------------------------------------------|
------------4-6/8---8/9-8--6-4-6--3-4-6-6/8---|
---4-4-4-4------------------------------------|

  F#m7            C#        F#m7
E|----------------------------------------------
B|----------------------------------------------
G|-----------6--8/10---------11-10-8----8---8/10
D|---6-6-6-6-------------------------11---------
A|----------------------------------------------
E|----------------------------------------------

C#    F#m7            C#          Cm7      F
--------------------------------------------------------|
-9------------------------------------------------------|
-----------------6-8/10---10/11-10-8--6-8--5-6-8-8/10---|
---------6-6-6-6----------------------------------------|
--------------------------------------------------------|
--------------------------------------------------------|

  F#m7         C#   F#m7              C#
E|-----------------------------------------------------
B|-----------------------------------------------------
G|-----------------------------------------------------
D|-----------------------------------------------------
A|-----------4-6/8---8/9-8-6---6--6/8-9/11---11/13-11--
E|---4-4-4-4-----------------9-------------------------

     F#m7          C#         Cm7    F
-------------------------------------------------|
-------------------------------------------------|
-------------------------------------------------|
-------------------------------------------------|
-----------------4-6/8---8/9-8--6-4-6--3-4-6-6/8-|
--------4-4-4-4----------------------------------|

  F#m7                 C#                           F#m7              C#
E|------------------------------------------------------------------------|
B|----------------------9--9/11--9------------------------------------9---|
G|-----------6--8-8/10--------------10/8---------------------6-8-8/10-----|
D|---6-6-6-6-----------------------------11----------6-6-6-6--------------|
A|------------------------------------------------------------------------|
E|------------------------------------------------------------------------|