试听
[audio:]
gtp5GTP格式吉他谱下载: music-notation01图片(IMG)格式吉他谱:
  
歌曲信息
-------------------------------------------------------------------------------
歌曲名:有缘来作伙 
歌手/乐队:阿牛
编配者(转载来源):网络
曲调:[Original Key = E]  Capo:0
-------------------------------------------------------------------------------

   Intro (Guitar Solo):
     E                    A               B
   E|---0----2--4--2--2--|----0-------0---------7----|
   B|--------------------|------2---0---0-4--4-----4-|
   G|--------------------|--2------------------------|
   D|2-----1-------------|---------------------------|
   A|-----------4--2-----|0---------------2----------|
   E|--------------------|--------4------------------|

     E                    A       B       E
   E|---0----2--4--2--2--|----0-------2-------0---|
   B|--------------------|------2-------4-------0-|
   G|--------------------|--2-------4-------1-----|
   D|2-----1-------------|----------------2-------|
   A|-----------4--2-----|0-------2---------------|
   E|--------------------|------------------------|

   E   B   C#m    A     B
   你是天顶一朵花 不小心插在我头顶
   G#m     C#m      A       B
   不惊苍蝇四处飞 也不惊别人来看衰
   E   B     C#m    A           B
   我是路边牛屎一堆 人人都妒嫉我赚到宝贝
   G#m       C#m  A           B
   有你陪在我身边 世界刷变得真趣味
   G#m          C#m    A            B
   你要金银珠宝 没问题 你要大车大屋 我去买
   G#m             C#m
   我的内衣内裤 有你帮我洗
   A                B
   我若找不到路 有你来点火

   E        B
   有缘 才会来做伙
     C#m            G#m
   你这麼好的查某 要去哪儿找
   A            G#m    C#m
   查甫人是铁锤 查某是铁钉
   A              B
   咱俩人来起一间 爱的房间
   E          B
   爱人哪 有缘来做伙
     C#m           G#m
   我这麼好的查甫也不易找
   A                G#m  C#m
   人啊真正投缘 只是生得矮
   A          B        (Ending)
   人说脚短扎扎 免惊风吹

   Ending (Guitar Solo):
     E                    A               B
   E|---0----2--4--2--2--|----0-------0---------7----|
   B|--------------------|------2---0---0-4--4-----4-|
   G|--------------------|--2------------------------|
   D|2-----1-------------|---------------------------|
   A|-----------4--2-----|0---------------2----------|
   E|--------------------|--------4------------------|

     E                    A       B       E
   E|---0----2--4--2--2--|----0-------2---0-|
   B|--------------------|------2-------4---|
   G|--------------------|--2-------4-------|
   D|2-----1-------------|----------------2-|
   A|-----------4--2-----|0-------2---------|
   E|--------------------|------------------|